ISO-10303-21;
HEADER;
FILE_DESCRIPTION(('FreeCAD Model'),'2;1');
FILE_NAME('Open CASCADE Shape Model','2025-10-15T19:13:48',(''),(''),
  'Open CASCADE STEP processor 7.8','FreeCAD','Unknown');
FILE_SCHEMA(('AUTOMOTIVE_DESIGN { 1 0 10303 214 1 1 1 1 }'));
ENDSEC;
DATA;
#1 = APPLICATION_PROTOCOL_DEFINITION('international standard',
  'automotive_design',2000,#2);
#2 = APPLICATION_CONTEXT(
  'core data for automotive mechanical design processes');
#3 = SHAPE_DEFINITION_REPRESENTATION(#4,#10);
#4 = PRODUCT_DEFINITION_SHAPE('','',#5);
#5 = PRODUCT_DEFINITION('design','',#6,#9);
#6 = PRODUCT_DEFINITION_FORMATION('','',#7);
#7 = PRODUCT('PlanetaryInshaft','PlanetaryInshaft','',(#8));
#8 = PRODUCT_CONTEXT('',#2,'mechanical');
#9 = PRODUCT_DEFINITION_CONTEXT('part definition',#2,'design');
#10 = ADVANCED_BREP_SHAPE_REPRESENTATION('',(#11,#15),#255);
#11 = AXIS2_PLACEMENT_3D('',#12,#13,#14);
#12 = CARTESIAN_POINT('',(0.,0.,0.));
#13 = DIRECTION('',(0.,0.,1.));
#14 = DIRECTION('',(1.,0.,-0.));
#15 = MANIFOLD_SOLID_BREP('',#16);
#16 = CLOSED_SHELL('',(#17,#57,#88,#119,#147,#164,#176,#201,#221,#246));
#17 = ADVANCED_FACE('',(#18),#52,.F.);
#18 = FACE_BOUND('',#19,.F.);
#19 = EDGE_LOOP('',(#20,#30,#38,#46));
#20 = ORIENTED_EDGE('',*,*,#21,.T.);
#21 = EDGE_CURVE('',#22,#24,#26,.T.);
#22 = VERTEX_POINT('',#23);
#23 = CARTESIAN_POINT('',(2.828427124746,0.,4.898979485566));
#24 = VERTEX_POINT('',#25);
#25 = CARTESIAN_POINT('',(2.828427124746,-6.5,4.898979485566));
#26 = LINE('',#27,#28);
#27 = CARTESIAN_POINT('',(2.828427124746,2.09E-15,4.898979485566));
#28 = VECTOR('',#29,1.);
#29 = DIRECTION('',(0.,-1.,3.9E-16));
#30 = ORIENTED_EDGE('',*,*,#31,.T.);
#31 = EDGE_CURVE('',#24,#32,#34,.T.);
#32 = VERTEX_POINT('',#33);
#33 = CARTESIAN_POINT('',(-4.898979485566,-6.5,2.828427124746));
#34 = LINE('',#35,#36);
#35 = CARTESIAN_POINT('',(2.828427124746,-6.5,4.898979485566));
#36 = VECTOR('',#37,1.);
#37 = DIRECTION('',(-0.965925826289,-1.958221385605E-18,-0.258819045103)
  );
#38 = ORIENTED_EDGE('',*,*,#39,.F.);
#39 = EDGE_CURVE('',#40,#32,#42,.T.);
#40 = VERTEX_POINT('',#41);
#41 = CARTESIAN_POINT('',(-4.898979485566,0.,2.828427124746));
#42 = LINE('',#43,#44);
#43 = CARTESIAN_POINT('',(-4.898979485566,1.41E-15,2.828427124746));
#44 = VECTOR('',#45,1.);
#45 = DIRECTION('',(0.,-1.,3.9E-16));
#46 = ORIENTED_EDGE('',*,*,#47,.F.);
#47 = EDGE_CURVE('',#22,#40,#48,.T.);
#48 = LINE('',#49,#50);
#49 = CARTESIAN_POINT('',(2.828427124746,8.859124224577E-17,
    4.898979485566));
#50 = VECTOR('',#51,1.);
#51 = DIRECTION('',(-0.965925826289,-1.958221385605E-18,-0.258819045103)
  );
#52 = PLANE('',#53);
#53 = AXIS2_PLACEMENT_3D('',#54,#55,#56);
#54 = CARTESIAN_POINT('',(2.828427124746,2.09E-15,4.898979485566));
#55 = DIRECTION('',(0.258819045103,-3.8E-16,-0.965925826289));
#56 = DIRECTION('',(-0.965925826289,-9.E-17,-0.258819045103));
#57 = ADVANCED_FACE('',(#58),#83,.F.);
#58 = FACE_BOUND('',#59,.F.);
#59 = EDGE_LOOP('',(#60,#70,#76,#77));
#60 = ORIENTED_EDGE('',*,*,#61,.T.);
#61 = EDGE_CURVE('',#62,#64,#66,.T.);
#62 = VERTEX_POINT('',#63);
#63 = CARTESIAN_POINT('',(4.898979485566,0.,-2.828427124746));
#64 = VERTEX_POINT('',#65);
#65 = CARTESIAN_POINT('',(4.898979485566,-6.5,-2.828427124746));
#66 = LINE('',#67,#68);
#67 = CARTESIAN_POINT('',(4.898979485566,-1.41E-15,-2.828427124746));
#68 = VECTOR('',#69,1.);
#69 = DIRECTION('',(0.,-1.,3.9E-16));
#70 = ORIENTED_EDGE('',*,*,#71,.T.);
#71 = EDGE_CURVE('',#64,#24,#72,.T.);
#72 = LINE('',#73,#74);
#73 = CARTESIAN_POINT('',(4.898979485566,-6.5,-2.828427124746));
#74 = VECTOR('',#75,1.);
#75 = DIRECTION('',(-0.258819045103,6.311801368024E-18,0.965925826289));
#76 = ORIENTED_EDGE('',*,*,#21,.F.);
#77 = ORIENTED_EDGE('',*,*,#78,.F.);
#78 = EDGE_CURVE('',#62,#22,#79,.T.);
#79 = LINE('',#80,#81);
#80 = CARTESIAN_POINT('',(4.898979485566,2.601414362266E-16,
    -2.828427124746));
#81 = VECTOR('',#82,1.);
#82 = DIRECTION('',(-0.258819045103,6.311801368024E-18,0.965925826289));
#83 = PLANE('',#84);
#84 = AXIS2_PLACEMENT_3D('',#85,#86,#87);
#85 = CARTESIAN_POINT('',(4.898979485566,-1.41E-15,-2.828427124746));
#86 = DIRECTION('',(-0.965925826289,-1.E-16,-0.258819045103));
#87 = DIRECTION('',(-0.258819045103,4.4E-16,0.965925826289));
#88 = ADVANCED_FACE('',(#89),#114,.F.);
#89 = FACE_BOUND('',#90,.F.);
#90 = EDGE_LOOP('',(#91,#92,#100,#108));
#91 = ORIENTED_EDGE('',*,*,#39,.T.);
#92 = ORIENTED_EDGE('',*,*,#93,.T.);
#93 = EDGE_CURVE('',#32,#94,#96,.T.);
#94 = VERTEX_POINT('',#95);
#95 = CARTESIAN_POINT('',(-2.828427124746,-6.5,-4.898979485566));
#96 = LINE('',#97,#98);
#97 = CARTESIAN_POINT('',(-4.898979485566,-6.5,2.828427124746));
#98 = VECTOR('',#99,1.);
#99 = DIRECTION('',(0.258819045103,-6.311801368024E-18,-0.965925826289)
  );
#100 = ORIENTED_EDGE('',*,*,#101,.F.);
#101 = EDGE_CURVE('',#102,#94,#104,.T.);
#102 = VERTEX_POINT('',#103);
#103 = CARTESIAN_POINT('',(-2.828427124746,0.,-4.898979485566));
#104 = LINE('',#105,#106);
#105 = CARTESIAN_POINT('',(-2.828427124746,-2.09E-15,-4.898979485566));
#106 = VECTOR('',#107,1.);
#107 = DIRECTION('',(0.,-1.,3.9E-16));
#108 = ORIENTED_EDGE('',*,*,#109,.F.);
#109 = EDGE_CURVE('',#40,#102,#110,.T.);
#110 = LINE('',#111,#112);
#111 = CARTESIAN_POINT('',(-4.898979485566,-2.601414362266E-16,
    2.828427124746));
#112 = VECTOR('',#113,1.);
#113 = DIRECTION('',(0.258819045103,-6.311801368024E-18,-0.965925826289)
  );
#114 = PLANE('',#115);
#115 = AXIS2_PLACEMENT_3D('',#116,#117,#118);
#116 = CARTESIAN_POINT('',(-4.898979485566,1.41E-15,2.828427124746));
#117 = DIRECTION('',(0.965925826289,1.E-16,0.258819045103));
#118 = DIRECTION('',(0.258819045103,-4.4E-16,-0.965925826289));
#119 = ADVANCED_FACE('',(#120,#131),#142,.F.);
#120 = FACE_BOUND('',#121,.F.);
#121 = EDGE_LOOP('',(#122));
#122 = ORIENTED_EDGE('',*,*,#123,.T.);
#123 = EDGE_CURVE('',#124,#124,#126,.T.);
#124 = VERTEX_POINT('',#125);
#125 = CARTESIAN_POINT('',(7.5,0.,0.));
#126 = CIRCLE('',#127,7.5);
#127 = AXIS2_PLACEMENT_3D('',#128,#129,#130);
#128 = CARTESIAN_POINT('',(0.,0.,0.));
#129 = DIRECTION('',(-0.,1.,2.22044604925E-16));
#130 = DIRECTION('',(1.,0.,0.));
#131 = FACE_BOUND('',#132,.F.);
#132 = EDGE_LOOP('',(#133,#134,#135,#136));
#133 = ORIENTED_EDGE('',*,*,#78,.T.);
#134 = ORIENTED_EDGE('',*,*,#47,.T.);
#135 = ORIENTED_EDGE('',*,*,#109,.T.);
#136 = ORIENTED_EDGE('',*,*,#137,.T.);
#137 = EDGE_CURVE('',#102,#62,#138,.T.);
#138 = LINE('',#139,#140);
#139 = CARTESIAN_POINT('',(-2.828427124746,-8.859124224577E-17,
    -4.898979485566));
#140 = VECTOR('',#141,1.);
#141 = DIRECTION('',(0.965925826289,1.958221385605E-18,0.258819045103));
#142 = PLANE('',#143);
#143 = AXIS2_PLACEMENT_3D('',#144,#145,#146);
#144 = CARTESIAN_POINT('',(-3.646507020105E-16,1.298716739122E-32,
    -5.848900222367E-17));
#145 = DIRECTION('',(0.,1.,0.));
#146 = DIRECTION('',(0.,0.,1.));
#147 = ADVANCED_FACE('',(#148),#159,.F.);
#148 = FACE_BOUND('',#149,.T.);
#149 = EDGE_LOOP('',(#150,#151,#152,#158));
#150 = ORIENTED_EDGE('',*,*,#31,.T.);
#151 = ORIENTED_EDGE('',*,*,#93,.T.);
#152 = ORIENTED_EDGE('',*,*,#153,.T.);
#153 = EDGE_CURVE('',#94,#64,#154,.T.);
#154 = LINE('',#155,#156);
#155 = CARTESIAN_POINT('',(-2.828427124746,-6.5,-4.898979485566));
#156 = VECTOR('',#157,1.);
#157 = DIRECTION('',(0.965925826289,1.958221385605E-18,0.258819045103));
#158 = ORIENTED_EDGE('',*,*,#71,.T.);
#159 = PLANE('',#160);
#160 = AXIS2_PLACEMENT_3D('',#161,#162,#163);
#161 = CARTESIAN_POINT('',(0.,-6.5,3.552713678801E-15));
#162 = DIRECTION('',(0.,1.,0.));
#163 = DIRECTION('',(0.,0.,1.));
#164 = ADVANCED_FACE('',(#165),#171,.F.);
#165 = FACE_BOUND('',#166,.F.);
#166 = EDGE_LOOP('',(#167,#168,#169,#170));
#167 = ORIENTED_EDGE('',*,*,#101,.T.);
#168 = ORIENTED_EDGE('',*,*,#153,.T.);
#169 = ORIENTED_EDGE('',*,*,#61,.F.);
#170 = ORIENTED_EDGE('',*,*,#137,.F.);
#171 = PLANE('',#172);
#172 = AXIS2_PLACEMENT_3D('',#173,#174,#175);
#173 = CARTESIAN_POINT('',(-2.828427124746,-2.09E-15,-4.898979485566));
#174 = DIRECTION('',(-0.258819045103,3.8E-16,0.965925826289));
#175 = DIRECTION('',(0.965925826289,9.E-17,0.258819045103));
#176 = ADVANCED_FACE('',(#177),#196,.T.);
#177 = FACE_BOUND('',#178,.F.);
#178 = EDGE_LOOP('',(#179,#187,#194,#195));
#179 = ORIENTED_EDGE('',*,*,#180,.T.);
#180 = EDGE_CURVE('',#124,#181,#183,.T.);
#181 = VERTEX_POINT('',#182);
#182 = CARTESIAN_POINT('',(7.5,14.5,3.219646771413E-15));
#183 = LINE('',#184,#185);
#184 = CARTESIAN_POINT('',(7.5,0.,0.));
#185 = VECTOR('',#186,1.);
#186 = DIRECTION('',(0.,1.,2.22044604925E-16));
#187 = ORIENTED_EDGE('',*,*,#188,.T.);
#188 = EDGE_CURVE('',#181,#181,#189,.T.);
#189 = CIRCLE('',#190,7.5);
#190 = AXIS2_PLACEMENT_3D('',#191,#192,#193);
#191 = CARTESIAN_POINT('',(0.,14.5,3.552713678801E-15));
#192 = DIRECTION('',(-0.,1.,2.22044604925E-16));
#193 = DIRECTION('',(1.,0.,0.));
#194 = ORIENTED_EDGE('',*,*,#180,.F.);
#195 = ORIENTED_EDGE('',*,*,#123,.F.);
#196 = CYLINDRICAL_SURFACE('',#197,7.5);
#197 = AXIS2_PLACEMENT_3D('',#198,#199,#200);
#198 = CARTESIAN_POINT('',(0.,0.,0.));
#199 = DIRECTION('',(0.,-1.,-2.22044604925E-16));
#200 = DIRECTION('',(1.,0.,0.));
#201 = ADVANCED_FACE('',(#202,#205),#216,.T.);
#202 = FACE_BOUND('',#203,.T.);
#203 = EDGE_LOOP('',(#204));
#204 = ORIENTED_EDGE('',*,*,#188,.T.);
#205 = FACE_BOUND('',#206,.T.);
#206 = EDGE_LOOP('',(#207));
#207 = ORIENTED_EDGE('',*,*,#208,.F.);
#208 = EDGE_CURVE('',#209,#209,#211,.T.);
#209 = VERTEX_POINT('',#210);
#210 = CARTESIAN_POINT('',(2.75,14.5,0.));
#211 = CIRCLE('',#212,2.75);
#212 = AXIS2_PLACEMENT_3D('',#213,#214,#215);
#213 = CARTESIAN_POINT('',(0.,14.5,0.));
#214 = DIRECTION('',(-0.,1.,2.22044604925E-16));
#215 = DIRECTION('',(1.,0.,0.));
#216 = PLANE('',#217);
#217 = AXIS2_PLACEMENT_3D('',#218,#219,#220);
#218 = CARTESIAN_POINT('',(-3.646507020105E-16,14.5,3.552713678801E-15)
  );
#219 = DIRECTION('',(0.,1.,0.));
#220 = DIRECTION('',(0.,0.,1.));
#221 = ADVANCED_FACE('',(#222),#241,.F.);
#222 = FACE_BOUND('',#223,.F.);
#223 = EDGE_LOOP('',(#224,#232,#239,#240));
#224 = ORIENTED_EDGE('',*,*,#225,.T.);
#225 = EDGE_CURVE('',#209,#226,#228,.T.);
#226 = VERTEX_POINT('',#227);
#227 = CARTESIAN_POINT('',(2.75,9.5,-1.110223024625E-15));
#228 = LINE('',#229,#230);
#229 = CARTESIAN_POINT('',(2.75,14.5,0.));
#230 = VECTOR('',#231,1.);
#231 = DIRECTION('',(0.,-1.,-2.22044604925E-16));
#232 = ORIENTED_EDGE('',*,*,#233,.T.);
#233 = EDGE_CURVE('',#226,#226,#234,.T.);
#234 = CIRCLE('',#235,2.75);
#235 = AXIS2_PLACEMENT_3D('',#236,#237,#238);
#236 = CARTESIAN_POINT('',(0.,9.5,-1.7763568394E-15));
#237 = DIRECTION('',(-0.,1.,2.22044604925E-16));
#238 = DIRECTION('',(1.,0.,0.));
#239 = ORIENTED_EDGE('',*,*,#225,.F.);
#240 = ORIENTED_EDGE('',*,*,#208,.F.);
#241 = CYLINDRICAL_SURFACE('',#242,2.75);
#242 = AXIS2_PLACEMENT_3D('',#243,#244,#245);
#243 = CARTESIAN_POINT('',(0.,14.5,0.));
#244 = DIRECTION('',(0.,1.,2.22044604925E-16));
#245 = DIRECTION('',(1.,0.,0.));
#246 = ADVANCED_FACE('',(#247),#250,.T.);
#247 = FACE_BOUND('',#248,.T.);
#248 = EDGE_LOOP('',(#249));
#249 = ORIENTED_EDGE('',*,*,#233,.T.);
#250 = PLANE('',#251);
#251 = AXIS2_PLACEMENT_3D('',#252,#253,#254);
#252 = CARTESIAN_POINT('',(-1.864691089826E-16,9.5,0.));
#253 = DIRECTION('',(0.,1.,0.));
#254 = DIRECTION('',(0.,0.,1.));
#255 = ( GEOMETRIC_REPRESENTATION_CONTEXT(3) 
GLOBAL_UNCERTAINTY_ASSIGNED_CONTEXT((#259)) GLOBAL_UNIT_ASSIGNED_CONTEXT
((#256,#257,#258)) REPRESENTATION_CONTEXT('Context #1',
  '3D Context with UNIT and UNCERTAINTY') );
#256 = ( LENGTH_UNIT() NAMED_UNIT(*) SI_UNIT(.MILLI.,.METRE.) );
#257 = ( NAMED_UNIT(*) PLANE_ANGLE_UNIT() SI_UNIT($,.RADIAN.) );
#258 = ( NAMED_UNIT(*) SI_UNIT($,.STERADIAN.) SOLID_ANGLE_UNIT() );
#259 = UNCERTAINTY_MEASURE_WITH_UNIT(LENGTH_MEASURE(1.E-07),#256,
  'distance_accuracy_value','confusion accuracy');
#260 = PRODUCT_RELATED_PRODUCT_CATEGORY('part',$,(#7));
#261 = MECHANICAL_DESIGN_GEOMETRIC_PRESENTATION_REPRESENTATION('',(#262)
  ,#255);
#262 = STYLED_ITEM('color',(#263),#15);
#263 = PRESENTATION_STYLE_ASSIGNMENT((#264,#270));
#264 = SURFACE_STYLE_USAGE(.BOTH.,#265);
#265 = SURFACE_SIDE_STYLE('',(#266));
#266 = SURFACE_STYLE_FILL_AREA(#267);
#267 = FILL_AREA_STYLE('',(#268));
#268 = FILL_AREA_STYLE_COLOUR('',#269);
#269 = COLOUR_RGB('',0.788235302081,0.35686275969,0.890196087049);
#270 = CURVE_STYLE('',#271,POSITIVE_LENGTH_MEASURE(0.1),#272);
#271 = DRAUGHTING_PRE_DEFINED_CURVE_FONT('continuous');
#272 = COLOUR_RGB('',9.803921802644E-02,9.803921802644E-02,
  9.803921802644E-02);
ENDSEC;
END-ISO-10303-21;
